Jazz Jack Rabbit 2 - Carrotus

(/) Slide Up  (\) Slide Down  (h) Hammer On  (p) Pull Off  (b) Bend (r) Release (v) Vibrato


E|-----------------------------------------------------------------------
B|----------10-8--------------------------10-8------8----------10-8------
G|-7-7-10-7------10-7-10-------7-7-7-10-7------10-7---7-7-10-7------10-7-
D|-----------------------10-10-------------------------------------------
A|-----------------------------------------------------------------------
E|-----------------------------------------------------------------------



E|-------------------8-7-8-10-15----------15-17-15----15----------------------------
B|-8-7---------------------------15-17-18----------18----17----------15-------------
G|-----8----7-7-10-7----------------------------------------14-15-17----17-16-17----
D|-------10----------------------------------------------------------------------17-
A|----------------------------------------------------------------------------------
E|----------------------------------------------------------------------------------
http://www.guitartabcreator.com
Guitar Tab Creator is intended to store guitar tab created through the tool. It currently does not support in-line text editing. Any text you place in here will be lost. If you need to comment on your tab, please use the "Tab Notes" section located below.