Slightly Stoopid Zeplike

(/) Slide Up  (\) Slide Down  (h) Hammer On  (p) Pull Off  (b) Bend (r) Release (v) Vibrato
E|--
B|--
G|--
D|--
A|--
E|--

Bar 1 Bar 2 5
Amaj Ab5 A(no3) Emaj Esus4 G A Aadd9 E

E|-------------- ------------ ---3----5----7------12---
B|-------------- ---------2-- ---3----5----5------9----
G|--2--4--5----- ---1-----1-- ---0----6----6------9----
D|--2--2--2----- ---2-----2-- ---0----7----7------9----
A|--0--0--0----- ---2-----2-- ---2---------------------
E|-------------- ---0-----0-- ---3---------------------


SECTION 1

Amaj Ab5 A(no3) Ab5 Amaj

D-D-U-D
E|--------------------------------------------------------------------------
B|----2-----------4-----------5-----------------4-----------------2--------
G|------2-----------2-----------2------------2-----------------2-----------
D|--------------------------------------------------------------------------
A|--0-----0-----0-----0-----0------0------0---------0-------0--------0-----
E|-------------------------------------------------------------------------



SECTION 2

Emaj Esus4
D D U D
E|-----------------------------------------------------------------
B|--------------------2--------------------------------------------
G|-----1-----------------2---------2/4----2---1h2p1---2------------
D|--------2-----------------------------------------------0h2h0h2--
A|-----------------------------------------------------------------
E|--0--------0------0------0---------------------------------------


SECTION 3


Emaj Esus4
D D U D
E|-----------------------------------------------------------------
B|--------------------2--------------------------------------------
G|-----1-----------------2---------2/4----2---1h2p1---2------------
D|--------2-----------------------------------------------0h2h0h2--
A|-----------------------------------------------------------------
E|--0--------0------0------0---------------------------------------


SECTION 4

Amaj Ab5 A(no3)

D-D-U-D
E|-------------------------------------------------------7-5-4h5p4---2h4p--
B|----2-----------4-----------5--------------------------------------------
G|------2-----------2-----------2---------/7--5-4h5p4----------------------
D|-------------------------------------------------------------------------
A|--0-----0-----0-----0-----0------0---------------------------------------
E|-------------------------------------------------------------------------




http://www.guitartabcreator.com
Guitar Tab Creator is intended to store guitar tab created through the tool. It currently does not support in-line text editing. Any text you place in here will be lost. If you need to comment on your tab, please use the "Tab Notes" section located below.