Say It Aint So Solo

(/) Slide Up  (\) Slide Down  (h) Hammer On  (p) Pull Off  (b) Bend (r) Release (v) Vibrato


E|---------------------------------------------------------------------------
B|--19br--17-16-----16-------------------19br-17-16-----16-------------------
G|---------------18----18-18br--16-------------------18----18-18b-18p16--18b-
D|---------------------------------18----------------------------------------
A|---------------------------------------------------------------------------
E|---------------------------------------------------------------------------

E|-------------16--------------------------16-16br-----16-----
B|---------17------19/17-16-(times two)--------------19-----17-
G|--16h18-----------------------------------------------------
D|------------------------------------------------------------
A|------------------------------------------------------------
E|--------------------------------------------------------------




E|--
B|--
G|--
D|--
A|--
E|--


E|--
B|--
G|--
D|--
A|--
E|--

E|--
B|--
G|--
D|--
A|--
E|--
Guitar Tab Creator is intended to store guitar tab created through the tool. It currently does not support in-line text editing. Any text you place in here will be lost. If you need to comment on your tab, please use the "Tab Notes" section located below.