primus1

(/) Slide Up  (\) Slide Down  (h) Hammer On  (p) Pull Off  (b) Bend (r) Release (v) Vibrato


E|----------------------------------
B|----------------------------------
G|--10--10--10--10--13--13--13--13--
D|--8---8---8---8---12--12--12--12--
A|--10--10--10--10--11--11--11--11--
E|----------------------------------



E|---------------------------------------------
B|---------------------------------------------
G|---------------------------------------------
D|----8----8----8----8----12----12----12----12-
A|-10---10---10---10---11----11----11----11----
E|---------------------------------------------



E|--------------------
B|---------------8----
G|-0-----------7------
D|-----------6--------
A|--------------------
E|--------------------
http://www.guitartabcreator.com
Guitar Tab Creator is intended to store guitar tab created through the tool. It currently does not support in-line text editing. Any text you place in here will be lost. If you need to comment on your tab, please use the "Tab Notes" section located below.