just a phase idea

(/) Slide Up  (\) Slide Down  (h) Hammer On  (p) Pull Off  (b) Bend (r) Release (v) Vibrato


E|---------------------------------------------
B|---------------------------------------------
G|-------------7-----6-------------------------
D|-------5--------5-----5-------4-----------7--
A|--5\7-----7--------------3/5-----5-----4-----
E|------------------------------------5--------



E|---------------------------------------------
B|---------------------------------------------
G|-------------7-----6-------------0-----------
D|-------5--------5-----5-------4-----------7--
A|--5/7-----7--------------4/5-----------4-----
E|------------------------------------5--------
http://www.guitartabcreator.com
Guitar Tab Creator is intended to store guitar tab created through the tool. It currently does not support in-line text editing. Any text you place in here will be lost. If you need to comment on your tab, please use the "Tab Notes" section located below.