jazz chordss

(/) Slide Up  (\) Slide Down  (h) Hammer On  (p) Pull Off  (b) Bend (r) Release (v) Vibrato


E|-----------------------------
B|--5--0-----------5--5--7--9--
G|--4--0-----------4--5--7--8--
D|--2--2-----------2--3--5--9--
A|--3--0-----------3--5--7--7--
E|-----------------------------



E|--------------------------------------
B|--------------------------------------
G|--------4--------4--------4--------4--
D|-----2--------2--------2--------2-----
A|--0--------3--------5-----------------
E|-----------------------------3--------
http://www.guitartabcreator.com
Guitar Tab Creator is intended to store guitar tab created through the tool. It currently does not support in-line text editing. Any text you place in here will be lost. If you need to comment on your tab, please use the "Tab Notes" section located below.