idea2-sountack

(/) Slide Up  (\) Slide Down  (h) Hammer On  (p) Pull Off  (b) Bend (r) Release (v) Vibrato


E|-----------4--4-----------
B|--------5--------4--------
G|-----6--------------6-----
D|--6--------------------6--
A|--------------------------
E|--------------------------



E|--4--4--7--7--
B|--5--4--8--7--
G|--6--6--9--9--
D|--6--6--9--9--
A|--------------
E|--------------
http://www.guitartabcreator.com
Guitar Tab Creator is intended to store guitar tab created through the tool. It currently does not support in-line text editing. Any text you place in here will be lost. If you need to comment on your tab, please use the "Tab Notes" section located below.