idea drop d

(/) Slide Up  (\) Slide Down  (h) Hammer On  (p) Pull Off  (b) Bend (r) Release (v) Vibrato


E|----------------------
B|----------------------
G|----------------------
D|----------------------
A|-------------0h3h5p0--
E|--0h5h7\3p0-----------



E|--------------
B|--7--5--------
G|--7--5--5--1--
D|--5--3--5--1--
A|--5--5--3--0--
E|--------------
http://www.guitartabcreator.com
Guitar Tab Creator is intended to store guitar tab created through the tool. It currently does not support in-line text editing. Any text you place in here will be lost. If you need to comment on your tab, please use the "Tab Notes" section located below.