idea

(/) Slide Up  (\) Slide Down  (h) Hammer On  (p) Pull Off  (b) Bend (r) Release (v) Vibrato


E|----------------------------------------
B|--------10-----10-----------9-----9-----
G|------------9------9-----------8-----8--
D|-----7-------------------9--------------
A|--9-------------------7-----------------
E|----------------------------------------



E|-----
B|-----
G|-----
D|-----
A|-----
E|-----



E|------------
B|--10--9--7--
G|--9---7--6--
D|--7---9--7--
A|--9---7--5--
E|------------
http://www.guitartabcreator.com
Guitar Tab Creator is intended to store guitar tab created through the tool. It currently does not support in-line text editing. Any text you place in here will be lost. If you need to comment on your tab, please use the "Tab Notes" section located below.