good song

(/) Slide Up  (\) Slide Down  (h) Hammer On  (p) Pull Off  (b) Bend (r) Release (v) Vibrato


E|--------------------------------------------------
B|--------------------------------------------------
G|--------6-----------6-----------6-----------6-----
D|-----4-----4-----7-----7-----4-----4-----7-----7--
A|--5-----------5-----------5-----------5-----------
E|--------------------------------------------------



E|-----------------------------------------------
B|-----------------------------------------------
G|--------6-----7-----6--------------------------
D|-----4-----4-----4-----4--------7-----------8--
A|--5--------------------------7-----7-----8-----
E|--------------------------5-----------6--------



E|--------------------------------------------------------------------------------
B|--------------------------------------------------------------------------------
G|--------6-----7-----6-----------------------------------------------------------
D|-----4-----4-----4-----4--------7-----------8------------10-------------10------
A|--5--------------------------7-----7-----8-----8-----10------10-----10------10--
E|--------------------------5-----------6-----------8--------------8--------------



E|--------------------------------------------------------
B|--------------------------------------------------------
G|--------------------------------------------------------
D|--------7-----------8------------10-------------10------
A|-----7-----7-----8-----8-----10------10-----10------10--
E|--5-----------6-----------8--------------8--------------



E|--------------------------------------------
B|--------------------------8--5--------------
G|--------6-----7-----6-----------7--6--------
D|-----4-----4-----4-----4--------------7--5--
A|--5-----------------------------------------
E|--------------------------------------------



E|--------------------------------------------
B|--------------------------------------------
G|--------6-----7-----------8-----9-----8-----
D|-----4-----4-----4-----9-----9-----9-----9--
A|--5-----------------7-----------------------
E|--------------------------------------------



E|----------------------------------------------------------------------------------------------
B|----------------------------------------------------------------------------------------------
G|--------6-----7-----6--------8-----9-----8------------9------10------9--------------11--------
D|-----4-----4-----4--------9-----9-----9-----9-----10-----10------10-----10------12------------
A|--5--------------------7-----------------------8----------------------------10----------------
E|----------------------------------------------------------------------------------------------
http://www.guitartabcreator.com
Guitar Tab Creator is intended to store guitar tab created through the tool. It currently does not support in-line text editing. Any text you place in here will be lost. If you need to comment on your tab, please use the "Tab Notes" section located below.