Be Yourself Chords

(/) Slide Up  (\) Slide Down  (h) Hammer On  (p) Pull Off  (b) Bend (r) Release (v) Vibrato


E|-----2--2--------
B|--3--3--2--------
G|--4--2--0--------
D|--4-----0--2-----
A|--2-----1--2-----
E|--------2--0-----
Bm D G Em
Verse

E|-----7-----------
B|--3--7-----------
G|--4--7--4--------
D|--4--7--5--2-----
A|--2--5--5--2-----
E|--------3--0-----
Bm Dmaj Gmaj Em

Chorus


E|--2--------------
B|--2-----3--------
G|--0--2--4--3-----
D|--0--2--4--4-----
A|--2--0--2--4-----
E|--3--------2-----

G A Bm F#m

build up http://www.guitartabcreator.com
Guitar Tab Creator is intended to store guitar tab created through the tool. It currently does not support in-line text editing. Any text you place in here will be lost. If you need to comment on your tab, please use the "Tab Notes" section located below.