Tears In Heaven

(/) Slide Up  (\) Slide Down  (h) Hammer On  (p) Pull Off  (b) Bend (r) Release (v) Vibrato


E|-------|------------------------------|-----------------------|-----------------------|--
B|-------|--------2h3p2-----5-----5--2--|-----2-----2-----2-----|--3-----3-----3-----3--|--
G|-------|-----2---------2--4-----4--2--|-----2-----2-----2-----|--2-----2-----2-----1--|--
D|-------|------------------------------|-----------------------|-----------------------|--
A|-------|--0---------------------------|-----------------------|-----------------------|--
E|--0h2--|------------------4--4-----2--|--2-----2--0--0-----0--|--2--2-----2--0--0--0--|--



E|-----------------------|--
B|--2-----2-----2-----2--|--
G|--2-----2-----2-----2--|--
D|-----------------------|--
A|--0--0-----0--0--0--0--|--
E|-----------------------|--



E|-------|------------------------------|-----------------------|--------------------------|--
B|-------|--------2h3p2-----5-----5--2--|-----2-----2-----2-----|--3-----3-----2-----2-----|--
G|-------|-----2---------2--4-----4--2--|-----2-----2-----2-----|--2-----2-----2-----2-----|--
D|-------|------------------------------|-----------------------|--------------------------|--
A|-------|--0---------------------------|-----------------------|--------------------------|--
E|--0h2--|------------------4--4-----2--|--2-----2--0--0-----0--|--2--2--2--2--0--0-----0--|--



E|--------------------------|--
B|--0-----0-----2-----3-----|--
G|--1-----1-----2-----4-----|--
D|--------------------------|--
A|--------------------------|--
E|-----0-----0-----0-----0--|--



E|--------------------------|-----
B|--2-----2-----2-----2-----|-----
G|--2-----2-----2-----2-----|-----
D|--------------------------|-----
A|--------------------------|-----
E|--2--2-----2-----2-----0--|-----



E|-------|------------------------|-----------------------|-----------------------|--
B|-------|--------2h3p2-----5--2--|-----2-----2-----2-----|--3-----3-----3-----2--|--
G|-------|-----2---------2--4--2--|-----2-----2-----2-----|--2-----2-----2-----2--|--
D|-------|------------------------|-----------------------|-----------------------|--
A|-------|--0---------------------|-----------------------|-----------------------|--
E|--0h2--|------------------4--2--|--2-----2--0--0-----0--|--2--2-----2--0--0-----|--

http://www.guitartabcreator.com
Guitar Tab Creator is intended to store guitar tab created through the tool. It currently does not support in-line text editing. Any text you place in here will be lost. If you need to comment on your tab, please use the "Tab Notes" section located below.