Warehouse

(/) Slide Up  (\) Slide Down  (h) Hammer On  (p) Pull Off  (b) Bend (r) Release (v) Vibrato

Intro G1
E|------------------|-------------------------|------------------|----------------------------
B|------------------|-------------------------|------------------|----------------------------
G|------------------|------------7------------|------------------|------------7---------------
D|--------11--------|--------11-----9---------|--------11--------|--------11-----9------------
A|-----9------------|-----9------------10--9--|-----9------------|-----9------------10--9-----
E|--7---------------|--7----------------------|--7---------------|--7-------------------------



E|-----------------|-----------------------|-----------------|-------------------------
B|-----------------|-----------------------|-----------------|-------------------------
G|-----------------|-----------5-----------|-----------------|-------------5-----------
D|--------9--------|--------9-----7--------|--------9--------|----------9-----7--------
A|-----7-----------|-----7-----------8--7--|-----7-----------|-------7-----------8--7--
E|--5--------------|--5--------------------|--5--------------|----5--------------------


Main Riff G1
E|-------------------------
B|-------------------------
G|------------7------------
D|--------11-----9---------
A|-----9------------10--9--
E|--7----------------------


Pre-Chorus G1 Chorus G1 Post Chorus G1
E|--5--3--3--3--------|------------|--------
B|--5--3--3--3--------|------------|--------
G|--6--6--6--6--Repeat|------------|--------Back to Verse or Chorus
D|--7--7--7--7--------|--9--9--11--|--5--7--
A|--7--7--7--7--------|-----7--9---|--------
E|--5--3--5--3--------|--7---------|--3--5--


Main Riff G2
E|------------------------
B|------------------------
G|------------------------
D|--------11--12--11--11--
A|-----9--------------9---
E|--7-----------------7---


Pre-Chorus G2 Chorus G2 Post Chorus G2
E|-----1--3--1---------|--2--0--2--|--2--0--
B|--1--2--3--2---------|--4--0--2--|--2--1--
G|--1--1-----1-- Repeat|--4--1--3--|--0--1--Back to Verse or Chorus
D|--1------------------|--4--2--4--|--0--1--
A|--------2------------|--2--2--4--|--2--0--
E|--------3------------|--2--0--2--|--3--0--
Guitar Tab Creator is intended to store guitar tab created through the tool. It currently does not support in-line text editing. Any text you place in here will be lost. If you need to comment on your tab, please use the "Tab Notes" section located below.