Misty Bass tab

(/) Slide Up  (\) Slide Down  (h) Hammer On  (p) Pull Off  (b) Bend (r) Release (v) Vibrato

Stave 1:

E|--------------------------------------------------------
B|--------------------------------------------------------
G|------------------------------------5-------------------
D|--------8-------------5-------3--3-----3----------------
A|--6--6-----6----4--4-----4---------------------------5--
E|--------------------------------------------6--6--8-----

Stave 2:

E|-------------------------------------------------------------------------------------------
B|-------------------------------------------------------------------------------------------
G|-----------------7-------------------------------------------------------------------------
D|--------8-----8-----8------------------------------------------5-------------4----------3--
A|--6--6-----6-----------6----------8--------6--------6-------6-----6---------------4--4-----
E|----------------------------6--6-----5--5-----4--4-------4-------------4--4----------------

Stave 3:

E|-----------------------------------------------------------------------------------
B|-----------------------------------------------------------------------------------
G|-----------------------------------------------------------------------------------
D|--------8------------------10--------------------------------------10--------------
A|--6--6-----------10--8--8---------------10--10--10-----------8--8---------------5--
E|-----------8--8----------------6--6--6--------------8--8--8------------6--6--8-----

Stave 4:

E|-------------------------------------------
B|-------------------------------------------
G|-------------------------------------------
D|-------------------------------------------
A|--6--6--6-----------6--6--6--6--6--6--6----
E|-----------4--4--4-------------------------

Stave 5:

E|--------------------------------------------------------------------------------------------
B|--------------------------------------------------------------------------------------------
G|--------------------------------------------------------------------------------------------
D|-----------------------------------------------------------5-----------------------5--------
A|--------8-----8-----8--------6-----6-----6--------6-----6-----6-----------6-----6-----6-----
E|--6--6-----6-----6-----5--5-----5-----5-----4--4-----4-----------4--4--4-----4-----------4--

Stave 6:

E|---------------------------------------------------------------------------------------
B|---------------------------------------------------------------------------------------
G|---------------------------------------------------------------------------------------
D|-----------------------------------------------------------------------10--------------
A|-----------------------4--4--4--4--4--4--4--10--10--10-----------8--8---------------5--
E|--4--4--4--4--4--4--4-----------------------------------8--8--8------------6--6--8-----

http://www.guitartabcreator.com
Guitar Tab Creator is intended to store guitar tab created through the tool. It currently does not support in-line text editing. Any text you place in here will be lost. If you need to comment on your tab, please use the "Tab Notes" section located below.