Memory

(/) Slide Up  (\) Slide Down  (h) Hammer On  (p) Pull Off  (b) Bend (r) Release (v) Vibrato
E|--------------------------------------------------------------------
B|--------------------------------------------------------------------
G|--3--3--2--3--5--3-----3--3--2--3--5--3-----------------------------
D|--------------------5--------------------3--5--5--1--3--5--3--1--0--
A|--------------------------------------------------------------------
E|--------------------------------------------------------------------



E|-----------------------------------------------------------------
B|-----------------------------------------------------------------
G|-----------------------0--2--3--2--0-----------------------------
D|--0--3--3-----0--1--3-----------------3--0-----3--3--------------
A|-----------3--------------------------------1--------------1--1--
E|-----------------------------------------------------3--3--------



E|-----------------------------------------------------------------------------------------------
B|--------------------------------------------------------------------------------------0--1-----
G|-----------------------------------------------------2--0--------------0-----2--2--2--------0--
D|--------------------------------------------3--3--3--------3--2--2--2-----3--------------------
A|-----5-----------5-----------5--5--3--3--3-----------------------------------------------------
E|--5-----5--3--5-----5--3--5--------------------------------------------------------------------



E|--------------------------------------------------------------------
B|--------------1--------------------1--------------------------------
G|--3--3--2--3-----3--0--3--3--2--3-----3-----------------0-----------
D|-----------------------------------------3--5--5--1--3-----3--1-----
A|-----------------------------------------------------------------5--
E|--------------------------------------------------------------------



E|--------------------------------------------------------------
B|--------------------------------------------------------------
G|-----------------------0--2--3--2--0--------------------------
D|-----3--3-----0--1--3-----------------3--0-----3--3-----------
A|--5--------3--------------------------------1-----------1--1--
E|-----------------------------------------------------3--------



E|-----------------------------------------------------------------------------------------------
B|-----------------------------------------------------------------------------------------------
G|-----3-----------3-----------3--3--1--1--1--------------------------------------------0--1-----
D|--3-----3--1--3-----3--1--3--------------------------3--1--------------1-----3--3--3--------1--
A|--------------------------------------------4--4--4--------4--3--3--3-----4--------------------
E|-----------------------------------------------------------------------------------------------



E|--------------------------------------------------------------------
B|--------------------------------------------------------------------
G|--6--6--5--6--8--6-----6--6--5--6--8--6-----------------------------
D|--------------------8--------------------6--8--8--4--6--8--6--4--3--
A|--------------------------------------------------------------------
E|--------------------------------------------------------------------



E|--------------------------------------------------------------
B|--------------------------------------------------------------
G|--------------------------5--6--5-----------------------------
D|--3--6--6-----3--4--6--8-----------8--6--------6--6-----------
A|-----------6-----------------------------8--4-----------4--4--
E|-----------------------------------------------------6--------
http://www.guitartabcreator.com
Guitar Tab Creator is intended to store guitar tab created through the tool. It currently does not support in-line text editing. Any text you place in here will be lost. If you need to comment on your tab, please use the "Tab Notes" section located below.