halo

(/) Slide Up  (\) Slide Down  (h) Hammer On  (p) Pull Off  (b) Bend (r) Release (v) Vibrato


E|-------------------------------------------------------------------------------
B|-------------------------------------------------------------------------------
G|--------------2---------------4--6--7--6-----6--4------------------------2-----
D|--2--4--5--4-----5--4--2------------------7---------------------2--4--5-----4--
A|-------------------------------------------------------2--4--5-----------------
E|-------------------------------------------------------------------------------



E|-----------------------
B|-----------------------
G|-----------------------
D|--2--5--4--2--4-----2--
A|-----------------5-----
E|-----------------------



E|------------------------------------------------------------------------
B|------------------------------------------------------------------------
G|------------------------------------------------------------------------
D|------------------------------------------------------------------------
A|-----------7-----------9-----------10-----------12-----------12--10--9--
E|--0--0--0-----0--0--0-----0--0--0------0--0--0------0--0--0-------------



E|--------------------------------------------------------------------------
B|--------------------------------------------------------------------------
G|--------------------------------------------------------------------------
D|--------------------------------------------------------------------------
A|-----------7--7--7-----------10----------------12--12-----------10--9--7--
E|--0--0--0-----------0--0--0------0----0--0--0----------0--0--0------------



E|----------------------------------------------------------------------------------17--18--20--18--17------
B|--15--18--15--20--15--18--15--20--15--18--15--20--15--18--15--20--15--18--15--20----------------------20--
G|----------------------------------------------------------------------------------------------------------
D|----------------------------------------------------------------------------------------------------------
A|----------------------------------------------------------------------------------------------------------
E|----------------------------------------------------------------------------------------------------------



E|--12--15--12--17--------------------12--14--15--14--12------12--
B|--------------------------------------------------------15------
G|----------------------------------------------------------------
D|----------------------------------------------------------------
A|----------------------------------------------------------------
E|----------------------------------------------------------------
http://www.guitartabcreator.com
Guitar Tab Creator is intended to store guitar tab created through the tool. It currently does not support in-line text editing. Any text you place in here will be lost. If you need to comment on your tab, please use the "Tab Notes" section located below.