Rope Bridge

Capo 2


E|--------------------------------
B|--------------------------------
G|---0h2-0------------------------
D|--3-----0--0h2-0---------0h2----
A|---------3------3-0h2-0-0----0--
E|-----------------3-----3--------


E|------------------------------1-3h5-3------------------------------
B|-----------------------------1-------3-1-3h5-3-------------3h5-3---
G|---0h2-0--------------------2-----------------2-0-2h4-2-0-2-----2--
D|--3-----0--0h2-0---------0h2---------------------------------------
A|---------3------3-0h2-0-0------------------------------------------
E|-----------------3-----3-------------------------------------------

E|--1-3h5-3------------------------------
B|---------3-1-3h5-3-------------3h5-3---
G|------------------2-0-2h4-2-0-2-----2--
D|---------------------------------------
A|---------------------------------------
E|---------------------------------------
Guitar Tab Creator is intended to store guitar tab created through the tool. It currently does not support in-line text editing. Any text you place in here will be lost. If you need to comment on your tab, please use the "Tab Notes" section located below.