Moon represents my heart

(/) Slide Up  (\) Slide Down  (h) Hammer On  (p) Pull Off  (b) Bend (r) Release (v) Vibrato


E|--------------------------------------------
B|--------------------------------------------
G|-----------------------------6--8--9--6-----
D|--------6--9--------6--9--9--------------9--
A|-----7--------7--6--------------------------
E|--7-----------------------------------------



E|----------------------------------------------------------------------
B|----------------------------------------------------------------------
G|----------------------------------------------------------------------
D|----------------------------------------------------------------------
A|--9--9h11--7--7--7--9--9h11--7--7--7--9--9/11--11--7--9--7-----11--9--
E|------------------------------------------------------------9---------



E|--------------------------------------------------
B|--------------------------------------------------
G|--------------------------------------------------
D|------9------------9------------------------------
A|--11-----11--9--7-----------------------------11--
E|----------------------11--9--11--12--9--9--7------



E|--------------------------------------------------
B|-------------------------------------------9------
G|------------------------------9--9--9--11-----11--
D|--9-------------9---------------------------------
A|-----11--9----------------------------------------
E|------------12-----11--9--11----------------------
http://www.guitartabcreator.com
Guitar Tab Creator is intended to store guitar tab created through the tool. It currently does not support in-line text editing. Any text you place in here will be lost. If you need to comment on your tab, please use the "Tab Notes" section located below.