Em Unnamed

(/) Slide Up  (\) Slide Down  (h) Hammer On  (p) Pull Off  (b) Bend (r) Release (v) Vibrato
E|--------------------------------------------------------------------
B|--------------------------------------------------------------------
G|--4--0--------0--0--2--0--------------------------------------------
D|--------0--4--------------0--2--0--0--2--0--------------------------
A|--------------------------------------------0--2--0--0--2--0--------
E|--------------------------------------------------------------3-----



E|-----------------------------1--------------------------------
B|-----------------0--0--1--0--1-----------------0--0--1--0-----
G|--------0--0--2-----------------------0--0--2--------------2--
D|--0--3--------------------------0--3-----------------------3--
A|--------------------------------------------------------------
E|--------------------------------------------------------------
http://www.guitartabcreator.com

Intro

Riff 1 X5

Riff 2 X4

Riff 1 X4





Verse/Chorus

Em Am Em X2

Am C Am C Em

Am C G Em Am C Em


Riff 1 X4

Riff 2 X4



(End Last Riff 2 on Fmaj before JAM)


JAM

Fmaj - Em


Ending-

Am C G G X8

Riff 1 X4

Riff 2 X4

Ending Chord Progression

F G G# // G# A# B // B C# D X 2

End on E maj





Guitar Tab Creator is intended to store guitar tab created through the tool. It currently does not support in-line text editing. Any text you place in here will be lost. If you need to comment on your tab, please use the "Tab Notes" section located below.