pirates of carribiean

(/) Slide Up  (\) Slide Down  (h) Hammer On  (p) Pull Off  (b) Bend (r) Release (v) Vibrato


E|-----------------------------------------------|-----------------------------------------------
B|-----------------5--6--6--6--8--5--5-----------|-----------------5--6--6--6--8--5--5-----------
G|-----5--7--7--7-----------------------7--5--7--|-----5--7--7--7-----------------------7--5--7--
D|--7--------------------------------------------|--7--------------------------------------------
A|-----------------------------------------------|-----------------------------------------------
E|-----------------------------------------------|-----------------------------------------------



E|-----------------------------5--6--6--5--3--5--|--------------5--6-----------------------
B|-----------------6--8--8--8--------------------|-----5--6--8-----------6--5--5--6-----5--
G|-----5--7--7--7--------------------------------|--7-----------------7--------------7-----
D|--7--------------------------------------------|-----------------------------------------
A|-----------------------------------------------|-----------------------------------------
E|-----------------------------------------------|-----------------------------------------



E|-----------------------------------------------|-----------------------------------------------
B|-----------------5--6--6--6--8--5--5-----------|-----------------5--6--6--6--8--5--5-----------
G|-----5--7--7--7-----------------------7--5--7--|-----5--7--7--7-----------------------7--5--7--
D|--7--------------------------------------------|--7--------------------------------------------
A|-----------------------------------------------|-----------------------------------------------
E|-----------------------------------------------|-----------------------------------------------



E|-----------------------------5--6--6--5--3--5--|--------------5--6-----------------------
B|-----------------6--8--8--8--------------------|-----5--6--8-----------6--5--5-----------
G|-----5--7--7--7--------------------------------|--7-----------------7-----------7--5--7--
D|--7--------------------------------------------|-----------------------------------------
A|-----------------------------------------------|-----------------------------------------
E|-----------------------------------------------|-----------------------------------------



E|-----------------5--1--------6----------------------------------------
B|-----5--6--6--8--------3--------6------------------10--10--10--11-----
G|--7-----------------------3--------7--------7--10--10--10--10---------
D|--------------------------------------8--7----------------------------
A|----------------------------------------------------------------------
E|----------------------------------------------------------------------



E|--10-------------------------------------------------|-----------------------------------------------------------------------------------
B|------8--8--8--8--6--10--10--10--11--10--8--6--5-----|------------8--10--8-------------8--10--8------8--10--8----------------------------
G|------9--9--9--9--7--10--10--10----------9--7--5--7--|--7--9--10------------10--9--10------------10------------10--9--10--9--7--9--5--7--
D|-----------------------------------------------------|-----------------------------------------------------------------------------------
A|-----------------------------------------------------|-----------------------------------------------------------------------------------
E|-----------------------------------------------------|-----------------------------------------------------------------------------------
http://www.guitartabcreator.com
Guitar Tab Creator is intended to store guitar tab created through the tool. It currently does not support in-line text editing. Any text you place in here will be lost. If you need to comment on your tab, please use the "Tab Notes" section located below.