Husk

(/) Slide Up  (\) Slide Down  (h) Hammer On  (p) Pull Off  (b) Bend (r) Release (v) Vibrato


E|--------------------------------------------------------------------------------------------
B|--------------------------------------------------------------------------------------------
G|--7--7--7--7--7--7--7--7--7--7--------------------------------------------------------------
D|--0--0--0--0--0--0--0--0--0--0--9--9--9--9--9--9--9--9--9--9--5--5--5--5--5--5--5--5--5--5--
A|--5--5--5--5--5--5--5--5--5--5--9--9--9--9--9--9--9--9--9--9--5--5--5--5--5--5--5--5--5--5--
E|--0--0--0--0--0--0--0--0--0--0--9--9--9--9--9--9--9--9--9--9--5--5--5--5--5--5--5--5--5--5--



E|--------------------------------------------------------------------------------------------------
B|--------------------------------------------------------------------------------------------------
G|--------------------------------7--7--7--7--7-----------------11--11--11--11--11--11--11--11--11--
D|--7--7--7--7--7--7--7--7--7--7--7--7--7--7--7--9--9--9--9--9--0---0---0---0---0---0---0---0---0---
A|--7--7--7--7--7--7--7--7--7--7--5--5--5--5--5--9--9--9--9--9--9---9---9---9---9---9---9---9---9---
E|--7--7--7--7--7--7--7--7--7--7--5--5--5--5--5--9--9--9--9--9--0---0---0---0---0---0---0---0---0---



E|----------------------------------------------------------------------------------------------------
B|----------------------------------------------------------------------------------------------------
G|--10--10--10--10--10--10--10--9--9--9--9--9--9--14--14--14--14--14----------------------------------
D|--0---0---0---0---0---0---0---0--0--0--0--0--0--0---0---0---0---0---14--14--14--14--14--14--14--14--
A|--8---8---8---8---8---8---8---7--7--7--7--7--7--12--12--12--12--12--14--14--14--14--14--14--14--14--
E|--0---0---0---0---0---0---0---0--0--0--0--0--0--0---0---0---0---0---14--14--14--14--14--14--14--14--



E|-------------------------------------------------------------------------------------------------
B|-------------------------------------------------------------------------------------------------
G|-------------------------------------------------------------------------------------------------
D|--10--10--10--10--10--10--10--10--10--12--12--12--12--12--12--12--12--9--9--9--9--9--9--9--9--9--
A|--10--10--10--10--10--10--10--10--10--12--12--12--12--12--12--12--12--9--9--9--9--9--9--9--9--9--
E|--10--10--10--10--10--10--10--10--10--12--12--12--12--12--12--12--12--9--9--9--9--9--9--9--9--9--



E|-----------------------------------------------------------------------------------------------
B|-----------------------------------------------------------------------------------------------
G|-----------------------------------------------------------------------------------11--11--11--
D|--7--7--7--7--7--7--7--2--2--2--2--2--2--2--6--6--6--6--6--6--6--0--0--5--5--9--9--0---0---0---
A|--7--7--7--7--7--7--7--2--2--2--2--2--2--2--6--6--6--6--6--6--6--0--0--5--5--9--9--9---9---9---
E|--7--7--7--7--7--7--7--2--2--2--2--2--2--2--6--6--6--6--6--6--6--0--0--5--5--9--9--0---0---0---
http://www.guitartabcreator.com
Guitar Tab Creator is intended to store guitar tab created through the tool. It currently does not support in-line text editing. Any text you place in here will be lost. If you need to comment on your tab, please use the "Tab Notes" section located below.