Pokemon Center Theme

(/) Slide Up  (\) Slide Down  (h) Hammer On  (p) Pull Off  (b) Bend (r) Release (v) Vibrato


E|--------------------------------------------------------
B|--6--1--6--13--12--10--8--5--5--0--5--12--10--5--6--10--
G|--------------------------------------------------------
D|--------------------------------------------------------
A|--------------------------------------------------------
E|--------------------------------------------------------



E|----------------------------------------------------
B|--6--1--6--13--12--10--8--5--5--0--5--12--10--8--6--
G|----------------------------------------------------
D|----------------------------------------------------
A|----------------------------------------------------
E|----------------------------------------------------



E|-----------------------------
B|--10--13--12--13--12--10--8--
G|-----------------------------
D|-----------------------------
A|-----------------------------
E|-----------------------------



E|---------------------------
B|--8--12--10--12--10--8--6--
G|---------------------------
D|---------------------------
A|---------------------------
E|---------------------------



E|------------------------------
B|--12--15--13--15--13--15--17--
G|------------------------------
D|------------------------------
A|------------------------------
E|------------------------------



E|-------------------------------------
B|--15--13--12--13--12--13--12--10--6--
G|-------------------------------------
D|-------------------------------------
A|-------------------------------------
E|-------------------------------------
http://www.guitartabcreator.com
Guitar Tab Creator is intended to store guitar tab created through the tool. It currently does not support in-line text editing. Any text you place in here will be lost. If you need to comment on your tab, please use the "Tab Notes" section located below.