Hotel California Intro

(/) Slide Up  (\) Slide Down  (h) Hammer On  (p) Pull Off  (b) Bend (r) Release (v) Vibrato

Standard Tuning
Capo on 7th

Em B7 D add9
E|--0--------------0--------|--2--------------2--|--0----------0-----------------|
B|--0--------0--------0--0--|--0--------0--------|--3------3-------3-----3----3--|
G|--0----0-------0----0--2--|--2----2-------2----|--2----2---2---2-----2----2----|
D|--2--2---2---2------------|--0--0---0---0------|--0--0-------------0-----------|
A|--2-----------------------|--2-----------------|--0----------------------0-----|
E|--0-----------------------|--0-----------------|--0----------------------------|




Em/C# C G
E|--0--------------0--|----------------0-----------|----------3------------------|
B|--0--------0--------|----------1-----------------|------0-------0-----0-----0--|
G|--0----0-------0----|------0-------0----------0--|----0---0---0-----0-----0----|
D|--2--2---2---2------|----2---2---2--------0h2----|--0--------------------------|
A|--4-----------------|--3-------------------------|----------------2------------|
E|--0-----------------|----------------------------|----------------------3------|




Am7 B7 Em
E|----------------0----|----------------2--|--0--|
B|----------1----------|----------0--------|--0--|
G|------0-------0------|------2-------2----|--0--|
D|----2---2---2-----2--|----0---0---0------|--2--|
A|--0------------------|--2----------------|--2--|
E|---------------------|-------------------|--0--|
Guitar Tab Creator is intended to store guitar tab created through the tool. It currently does not support in-line text editing. Any text you place in here will be lost. If you need to comment on your tab, please use the "Tab Notes" section located below.