Wait, I'll Get Back To You - Studying

(/) Slide Up  (\) Slide Down  (h) Hammer On  (p) Pull Off  (b) Bend (r) Release (v) Vibrato
E|--------------------------------------------------------------------------------------------------
B|--------------0-----------------------0-----------------------0-----------------------0-----------
G|-----0-----0-----0-----0-----0-----0-----0-----0-----0-----0-----0-----0-----0-----0-----0-----0--
D|--------4-----------4-----------4-----------4-----------4-----------4-----------4-----------4-----
A|--5-----------------------5-----------------------5-----------------------5-----------------------
E|--------------------------------------------------------------------------------------------------



E|--------------------------------------------------------------------------------------------------
B|--------------0-----------------------0-----------------------0-----------------------1-----------
G|-----0-----0-----0-----0-----0-----0-----0-----0-----0-----0-----0-----0-----0-----0-----0-----0--
D|--------2-----------2-----------2-----------2-----------2-----------2-----------2-----------2-----
A|--2-----------------------2-----------------------2-----------------------2-----------------------
E|--------------------------------------------------------------------------------------------------



E|-----------------------------------------------------------------------------
B|--------------0-----------------------0-----------------------0--------------
G|-----0-----0-----0-----0-----0-----0-----0-----0-----0-----0-----0-----0-----
D|--------0-----------0-----------0-----------0-----------2-----------2--------
A|-----------------------------------------------------------------------------
E|--3-----------------------3-----------------------0-----------------------0--



E|--------------------------------------------------0--------
B|--------------1-----------------------3-----------3--1--0--
G|-----0-----0-----0-----0-----0-----0-----0-----0--0--------
D|--------2-----------2-----------2-----------2-----2--------
A|--3-----------------------3-----------------------3--------
E|-----------------------------------------------------------
http://www.guitartabcreator.com
Guitar Tab Creator is intended to store guitar tab created through the tool. It currently does not support in-line text editing. Any text you place in here will be lost. If you need to comment on your tab, please use the "Tab Notes" section located below.