Lithium - Nirvana (D Tuning)

(/) Slide Up  (\) Slide Down  (h) Hammer On  (p) Pull Off  (b) Bend (r) Release (v) Vibrato


E|------------------------------------
B|------------------------------------
G|-----------------------7----5-7-4-7-
D|-------------6-------7------5-7-4-7-
A|-------6---4-------7--------3-5-2-5-
E|-0-0-4---0-----0-5------------------



E|-----------------
B|-----------------
G|-1---6---5-7-4-7-
D|-2-6-6-7-5-7-4-7-
A|-2-6-4-7-3-5-2-5-
E|---4---5---------



E|---------
B|-2-------
G|-2-5-7-4-
D|-2-5-7-4-
A|---3-5-2-
E|---------
http://www.guitartabcreator.com
Guitar Tab Creator is intended to store guitar tab created through the tool. It currently does not support in-line text editing. Any text you place in here will be lost. If you need to comment on your tab, please use the "Tab Notes" section located below.