slow melody

(/) Slide Up  (\) Slide Down  (h) Hammer On  (p) Pull Off  (b) Bend (r) Release (v) Vibrato


E|----------------------------------------------------------------------------------------------------
B|----------------------------------------------------------------------------------------------------
G|----------------------------------------------------------------------------------------------------
D|-----------------------------------------------------------------3-----2-----2-----0-----2p0--------
A|-----2-----2p0h2h3p2-----2-----2p0h2h3-----2-----2p0h2h3p2p0--------------------------3-------------
E|--3-----3-------------3-----3-----------3-----3---------------3-----3-----3-----3-------------------



E|----------------------------------------------------------------------------------
B|----------------------------------------------------------------------------------
G|----------------------------------------------------------------------------------
D|-------------------------------------------------------------3-----2-----2-----0--
A|-----2-----2p0h2h3p2-----2-----2p0h2h3-----2-----2p0h2h3--------------------------
E|--3-----3-------------3-----3-----------3-----3-----------3-----3-----3-----3-----
http://www.guitartabcreator.com
Guitar Tab Creator is intended to store guitar tab created through the tool. It currently does not support in-line text editing. Any text you place in here will be lost. If you need to comment on your tab, please use the "Tab Notes" section located below.