Song 1

(/) Slide Up  (\) Slide Down  (h) Hammer On  (p) Pull Off  (b) Bend (r) Release (v) Vibrato


E|--------------------------------------
B|--------------------------------------
G|--------------------------------------
D|-----5--------7--------9--------5-----
A|--3-----3--5-----5--7-----7--5-----5--
E|--------------------------------------



E|---------------------------------------
B|---------------------------------------
G|---------------------------------------
D|-----5--------2--3--2------------------
A|--3-----3--5-----------3--5--3--0v-----
E|---------------------------------------



E|------------------------5v--9/12/11--9--17v--15--
B|-------------------------------------------------
G|------------8--7--5------------------------------
D|-------5/7-----------7---------------------------
A|--3/5--------------------------------------------
E|-------------------------------------------------



E|--17--15--13--15--13--12--13--12--10--
B|--------------------------------------
G|--------------------------------------
D|--------------------------------------
A|--------------------------------------
E|--------------------------------------
http://www.guitartabcreator.com
Guitar Tab Creator is intended to store guitar tab created through the tool. It currently does not support in-line text editing. Any text you place in here will be lost. If you need to comment on your tab, please use the "Tab Notes" section located below.