You'll Be in My Heart (Tarzan)

(/) Slide Up  (\) Slide Down  (h) Hammer On  (p) Pull Off  (b) Bend (r) Release (v) Vibrato

E|------------------------------------------------------------------------------------------
B|------------------------------------------------------------------------------------------
G|------------------------------------------------------------------------------------------
D|--11--11--8--8-------------------8----11--11--8--8--------11--8---------------------------
A|----------------11----9--11--11-----------------------11-----------11--11--11--11--9------
E|--------------------------------------------------------------------------------------11--



E|--------------------------------------------
B|--------------------------------------------
G|----------------------------------8---------
D|--------------8------------8---------8------
A|--11--11--11-------11--11-----11--------11--
E|--------------------------------------------



E|----------------------------------------------------------------------------------------------
B|----------------------------------------------------------------------------------------------
G|--7--7-------------------------7--7---------------------7-------------------------------------
D|--------9--9--------7--7--9----------9--9--7--7------7-----9----7--7--9--7--------7--7--7--9--
A|----------------10-------------------------------10-------------------------10----------------
E|----------------------------------------------------------------------------------------------



E|-------------------------
B|-------------------------
G|----------------9--------
D|--7--7--9--7-------9--7--
A|-------------------------
E|-------------------------



E|--------------------------------------------------------------------------
B|------------------------------7-------------------------------7--7--------
G|--------9-----------------------------------------9--9--------------------
D|--9--9-----9--9--7------9--9-----9--7--6----9--9--------9--7--------6-----
A|-----------------------------------------------------------------------9--
E|--------------------------------------------------------------------------



E|---------------------------------------------------------------
B|-------------------------7--7----------------------------------
G|-----9---------------------------------------9--9--------------
D|--9-----9--9--7----9--9--------7--6----9--9--------9--7--6-----
A|------------------------------------------------------------9--
E|---------------------------------------------------------------
http://www.guitartabcreator.com
Guitar Tab Creator is intended to store guitar tab created through the tool. It currently does not support in-line text editing. Any text you place in here will be lost. If you need to comment on your tab, please use the "Tab Notes" section located below.