Whole New World (Aladdin)

(/) Slide Up  (\) Slide Down  (h) Hammer On  (p) Pull Off  (b) Bend (r) Release (v) Vibrato

E|---------------------------------------------------------------------------------------
B|---------------------------------------------------------------------------------------
G|---------------------------------------------------------------------------------------
D|--4--2--5--4----------4--2--5--4-----4--2----2-----4--2-----2-----------------2--------
A|--------------5-------------------5-------------5--------4-----5--4--5--2--4-----5-----
E|-----------------5------------------------------------------------------------------5--



E|---------------------------------------------------------------------------------------
B|---------------------------------------------------------------------------------------
G|---------------------------------------------------------------------------------------
D|--4--2--5--4----------4--2--5--4-----4--2----2-----4--2-----2-----------------2-----4--
A|--------------5-------------------5-------------5--------4-----5--4--5--2--4-----5-----
E|-----------------5---------------------------------------------------------------------



E|-------------------------------------------------------------------------------------------------
B|---------------------------------------------------2-------------2--3----------------------------
G|--------4--2----------4--2----------------------2-----4--2-------------2-------------------------
D|--4--5----------4--5--------2--5--4--4----4--5---------------------------------4--2-----------2--
A|--------------------------------------------------------------5-------------5--------5--2--5-----
E|-------------------------------------------------------------------------------------------------



E|-------------------------------------------------------------------------------
B|---------------------------------------------------2-------------2--3----------
G|--------4--2----------4--2----------------------2-----4--2-------------2-------
D|--4--5----------4--5--------2--5--4--4----4--5---------------------------------
A|--------------------------------------------------------------5----------------
E|-------------------------------------------------------------------------------



E|-----------------------------------------------------------------------------
B|-----------------------------------------------------------------------------
G|------------------------------------2-----3--2----------2-----3--2-----2-----
D|-----4--2-----2--5--4------------------5--------3----------5--------3-----5--
A|--5--------5-----------5--4--5---------------------3-------------------------
E|-----------------------------------------------------------------------------



E|------------------------------------------------------------------------------------
B|----------------------------------------------------3-------------3-----------------
G|--------2--------------------------------2----2--3-----5----2--3-----5-----3--2--2--
D|--5--4-----5--2--5--3--2--3-----2--5--3---------------------------------5-----------
A|-----------------------------5------------------------------------------------------
E|------------------------------------------------------------------------------------



E|--------------------------------------------------------------------------------------
B|-----------5--3----------5--3---------------------------------------------------------
G|--2--3--5--------5-------------5-------2-----------3--2-------------2--2--2--5--3-----
D|----------------------3-------------3-----5--3--5--------3--2--5-------------------3--
A|--------------------------------------------------------------------------------------
E|--------------------------------------------------------------------------------------



E|------------------------------------------------------------------------------------
B|----------------------------------5--3--------5--3----------------------------------
G|--2--2--2----------------2--3--5--------5-----------5----2-----------3--2-----------
D|-----------5--3--5--3----------------------3----------------5--3--5--------3--2--5--
A|------------------------------------------------------------------------------------
E|------------------------------------------------------------------------------------



E|--------------------------------------------------------
B|--------3-------------3-------------3-------------------
G|--2--3-----5----2--3-----5----2--3-----5-------2--------
D|--------------------------------------------------5--3--
A|--------------------------------------------3-----------
E|--------------------------------------------------------
http://www.guitartabcreator.com
Guitar Tab Creator is intended to store guitar tab created through the tool. It currently does not support in-line text editing. Any text you place in here will be lost. If you need to comment on your tab, please use the "Tab Notes" section located below.