Under The Sea

(/) Slide Up  (\) Slide Down  (h) Hammer On  (p) Pull Off  (b) Bend (r) Release (v) Vibrato

E|--------------------------------------------------------------------------------------------------
B|--------------------------------------------------------------------------------------------------
G|--3--3--3--3--2--5--3------------------------------3--3--3--3--2--5--3----------------------------
D|-----------------------3----3--3--3--3-----3----------------------------3----3--3--3--3-----3-----
A|----------------------------------------3-----5------------------------------------------3-----5--
E|--------------------------------------------------------------------------------------------------



E|----------------------------------------------------
B|----------------------------------------3-----------
G|--3--3--3--3-----3-----3----5--5--5--3-----5--3-----
D|--------------3-----3-------------------------------
A|----------------------------------------------------
E|----------------------------------------------------



E|--------------------------------------------------------------------------------------------------
B|--3-------------3-------------3--------------3--------------3--------3----3-----------------------
G|-----5--3----------5--3--5-------5--3-----------5--3-----------5--3----------5--3-----3--3-----5--
D|-----------5---------------------------5--------------5--3-------------------------5--------5-----
A|------------------------------------------6-------------------------------------------------------
E|--------------------------------------------------------------------------------------------------



E|-------------------------------------------------------------------
B|-----------3--3-------------3--------------3-----------3--------3--
G|--5--3--5--------5--5--3-------5--3-----------5--3--------5--3-----
D|-------------------------------------5--3-----------3--------------
A|-------------------------------------------------------------------
E|-------------------------------------------------------------------



E|-----------------------------------------------------------------------------------
B|--3-------------3--------------3-----------3--------3------3-----------------------
G|-----5--3--5-------5--3-----------5--3--------5--3------------5--3-----3--3-----5--
D|-------------------------5--3-----------3---------------------------5--------5-----
A|-----------------------------------------------------------------------------------
E|-----------------------------------------------------------------------------------



E|------------------------------------------------------------------
B|--------3--3-------------3--------------3-------------3--------3--
G|--3--5--------5--5--3-------5--3-----------5--3----------5--3-----
D|----------------------------------5--3-----------3----------------
A|------------------------------------------------------------------
E|------------------------------------------------------------------
http://www.guitartabcreator.com
Guitar Tab Creator is intended to store guitar tab created through the tool. It currently does not support in-line text editing. Any text you place in here will be lost. If you need to comment on your tab, please use the "Tab Notes" section located below.