Mountains

(/) Slide Up  (\) Slide Down  (h) Hammer On  (p) Pull Off  (b) Bend (r) Release (v) Vibrato


E|--------------------------------------------------------------------
B|--------------------------------------------------------------------
G|--------6--9--7-------------6-------------6--9--7-------------6--9--
D|--7--9-----------9----7--9----------7--9-----------9----7--9--------
A|-------------------------------7------------------------------------
E|--------------------------------------------------------------------



E|---------------------------------------------------------------
B|---------------------------------------------------------------
G|--------6--9--7-------------6----------------------------------
D|--7--9-----------9----7--9-------------7--6--------------------
A|-------------------------------7----7--------9--7--5-----------
E|------------------------------------------------------9--7--5--



E|------------------------------------------------------------------------------------------------
B|------------------------------------------------------------------------------------------------
G|--------9--7--6-----------------9--7--6------------------9--7--6-----------------9--7--6--------
D|-----------------9--6--7-----------------9--9---------------------9--6--7-----------------9--9--
A|--5--5--------------------5--5---------------------5--5--------------------5--5-----------------
E|------------------------------------------------------------------------------------------------



E|--------------------------------------------------------------------
B|--------------------------------------------------------------------
G|--------6--9--7-------------6-------------6--9--7-------------6--9--
D|--7--9-----------9----7--9----------7--9-----------9----7--9--------
A|-------------------------------7------------------------------------
E|--------------------------------------------------------------------



E|---------------------------------------------------------------
B|---------------------------------------------------------------
G|--------6--9--7-------------6----------------------------------
D|--7--9-----------9----7--9-------------7--6--------------------
A|-------------------------------7----7--------9--7--5-----------
E|------------------------------------------------------9--7--5--
http://www.guitartabcreator.com
Guitar Tab Creator is intended to store guitar tab created through the tool. It currently does not support in-line text editing. Any text you place in here will be lost. If you need to comment on your tab, please use the "Tab Notes" section located below.