Jingle Bells

(/) Slide Up  (\) Slide Down  (h) Hammer On  (p) Pull Off  (b) Bend (r) Release (v) Vibrato


E|------------------------------------------------------------------------------------------
B|------------------------------------------------------------------------------------------
G|--5--5--5----5--5--5----5--8--------5----6--6--6----6--6--5--5----5--5--5--------5-----8--
D|------------------------------6--8-----------------------------------------8--8-----8-----
A|------------------------------------------------------------------------------------------
E|------------------------------------------------------------------------------------------



E|---------------------------------------------------------------------------------------
B|---------------------------------------------------------------------------------------
G|--5--5--5----5--5--5----5--8--------5----6--6--6----6--6--5--5----5--5--8--8--6--------
D|------------------------------6--8-----------------------------------------------8--6--
A|---------------------------------------------------------------------------------------
E|---------------------------------------------------------------------------------------



E|--------------------------------------------------------------------------
B|--------------------------------------------------------------------------
G|-----5----------------------5----------------6--5----------8--8--6-----5--
D|--------8--6-------------------8--6----------------8--5-------------8-----
A|--6-----------6----6--6--6-----------8----8-------------------------------
E|--------------------------------------------------------------------------



E|-----------------------------------------------------------------------------------------
B|-----------------------------------------------------------------------6-----------------
G|-----5----------------------5-------------------6--5-----8--8--8----8-----8--6--------8--
D|--------8--6-------------------8--6-------------------8-------------------------8--6-----
A|--6-----------6----6--6--6-----------8----8--8-------------------------------------------
E|-----------------------------------------------------------------------------------------



E|---------------------------------------------------------------------------------------
B|---------------------------------------------------------------------------------------
G|--5--5--5----5--5--5----5--8--------5----6--6--6----6--6--5--5----5--5--8--8--6--------
D|------------------------------6--8-----------------------------------------------8--6--
A|---------------------------------------------------------------------------------------
E|---------------------------------------------------------------------------------------
http://www.guitartabcreator.com
Guitar Tab Creator is intended to store guitar tab created through the tool. It currently does not support in-line text editing. Any text you place in here will be lost. If you need to comment on your tab, please use the "Tab Notes" section located below.