Families Can Be Together Forever

(/) Slide Up  (\) Slide Down  (h) Hammer On  (p) Pull Off  (b) Bend (r) Release (v) Vibrato


E|------------------------------------------------------------------------------------------
B|------------------------------------------------------------------------------------------
G|--------------4--4--5------------------------------------5-----------------7--5-----------
D|--7--5-----5-----------5----5--5--7--7--8-------------------8--8--7--5-----------8--7--5--
A|--------8----------------------------------8----8--8--8-----------------8-----------------
E|------------------------------------------------------------------------------------------



E|------------------------------------------------------------------------------------------
B|------------------------------------------------------------------------------------------
G|-----------------5---------------------------------------------------------------------5--
D|--------------5-----8--7--5-------------5-------------------------------5--7--8--7--8-----
A|--5--8--5--7-----------------8----5--7--------5----------5--7--5--7--8--------------------
E|-------------------------------------------8-----8----8-----------------------------------



E|---------------------------------------------------------
B|---------------------------------------------------------
G|-----5--7--5---------------------------------------------
D|--8-----------8--7--5-----7----7--5----7--8--5-----------
A|-----------------------8------------------------8--7--8--
E|---------------------------------------------------------
http://www.guitartabcreator.com
Guitar Tab Creator is intended to store guitar tab created through the tool. It currently does not support in-line text editing. Any text you place in here will be lost. If you need to comment on your tab, please use the "Tab Notes" section located below.