Coursework

(/) Slide Up  (\) Slide Down  (h) Hammer On  (p) Pull Off  (b) Bend (r) Release (v) Vibrato


Guitar 1 Intro
E|22--22-222--222222--22-222--2222
B|33--33-333--333333--33-333--3333
G|22--22-233--333322--22-233--3333
D|--------------------------------
A|--------------------------------
E|--------------------------------

Guitar 1 verse
E|22--22-222--222222--22-222--2222
B|33--33-333--333333--33-333--3333
G|22--22-233--333322--22-233--3333 (X 2)
D|--------------------------------
A|--------------------------------
E|--------------------------------

Guitar 2 Verse
E|--2---2---2---2-
B|-3-3-3-3-3-3-3-3
G|2---2---3---3--- (X 4)
D|----------------
A|----------------
E|----------------

Guitar 1 chorus
E|33333333333344445555555544443333
B|55555555555555556666666666666666 (X 2 - let ring out after 2nd time)
G|55555555555555555555555555555555
D|--------------------------------
A|--------------------------------
E|--------------------------------

Guitar 2 chorus
E|--3---3---3-4-4---5---5---4---3-
B|-5-5-5-5-5-5-5-5-6-6-6-6-6-6-6-6
G|5---5---5-------5---5---5---5--- (X 2)
D|--------------------------------
A|--------------------------------
E|--------------------------------

Guitar 1 post-chorus
E|5555555555555555
B|6666666666666666
G|5555555566666666 (X 4)
D|----------------
A|----------------
E|----------------

Guitars 1 and 2 repeat verse (X 2)

Guitars 1 and 2 repeat chorus (X 2)

Guitar 1 post chorus (Alternate)
E|5555555555555555
B|6666666666666666
G|5555555566666666 (X 2)
D|----------------
A|----------------
E|----------------

E|5555555555555555
B|6666666666666666
G|7777777766666666
D|----------------
A|----------------
E|----------------

Guitar 2 outro
E|---------------------------------
B|---------------------------------
G|---8-------4-------8-------4-4--8
D|--9-------5-------9-------5-5-5-9
A|-9-------5-------9-------5------9
E|7-------3-------7-------3-------7
Guitar Tab Creator is intended to store guitar tab created through the tool. It currently does not support in-line text editing. Any text you place in here will be lost. If you need to comment on your tab, please use the "Tab Notes" section located below.