Riff raffin

(/) Slide Up  (\) Slide Down  (h) Hammer On  (p) Pull Off  (b) Bend (r) Release (v) Vibrato
E|--------0-----------------------------0----------------
B|-----3-----3----------3------------3-----3-------------
G|--------------2--2h4-----4------------------2--2p0--0--
D|-------------------------------------------------------
A|-------------------------------------------------------
E|--3-----------------------------3----------------------



E|--------------0-----------------------------0----------------
B|-----------3-----3----------3------------3-----3-------------
G|--------------------2--2h4-----4------------------2--2p0--0--
D|-------------------------------------------------------------
A|-------------------------------------------------------------
E|--0--2--3-----------------------------3----------------------



E|-----------------------------------------------------0--------
B|------------3----3--------------3-----------------------3-----
G|-----0h2h4-----4h2--0-----0h2h4h2--0-----------------------0--
D|--------------------------------------2--0--0--------2--0-----
A|--------------------------------------3--3--2--------------2--
E|--3--------------------3--------------------------------------
http://www.guitartabcreator.com
Guitar Tab Creator is intended to store guitar tab created through the tool. It currently does not support in-line text editing. Any text you place in here will be lost. If you need to comment on your tab, please use the "Tab Notes" section located below.