Reckless

(/) Slide Up  (\) Slide Down  (h) Hammer On  (p) Pull Off  (b) Bend (r) Release (v) Vibrato

E|-------------------------------------------------------------------------------
B|-------------------------------------------------------------------------------
G|--7--9----10------5--7----9------7--9----10------12--10--9--5------7--9----10--
D|-------------------------------------------------------------------------------
A|--5--7----8-------3--5----7------5--7----8-------10--8---7--3------5--7----8---
E|-------------------------------------------------------------------------------



E|-------------------------------------------
B|-------------------------------------------
G|--12--10----5----7--9----10----12--14--15--
D|-------------------------------------------
A|--10--8-----3----5--7----8-----10--12--13--
E|-------------------------------------------



E|-----------------------------------------------|---------------------------------------------------|--
B|-----------------------------------------------|---------------------------------------------------|--
G|-----------------------------------------------|---------------------------------------------------|--
D|--0--7--5--0--3--5--0--2--3--0--5--3--0--2--3--|--0--7--5--0--8--7--0--10--8--0--12--10--0--8--10--|--
A|-----------------------------------------------|---------------------------------------------------|--
E|-----------------------------------------------|---------------------------------------------------|--



E|------------------
B|------------------
G|------------------
D|--12--14--15--17--
A|------------------
E|------------------
http://www.guitartabcreator.com
Guitar Tab Creator is intended to store guitar tab created through the tool. It currently does not support in-line text editing. Any text you place in here will be lost. If you need to comment on your tab, please use the "Tab Notes" section located below.