I'll Be Alright



E|------------------------------------------------------------------|-------------------------
B|------------------------------------------------------------------|-------------------------
G|----------------------------------------------------------12--14--|-------------------------
D|----------12------12--13--12--------------12------12--13----------|----------12------12-----
A|--12--15------15--------------15--12--15------15------------------|--12--15------15---------
E|------------------------------------------------------------------|-------------------------



E|----------------------------------------------|--------------------------------------------
B|----------------------------------------------|--------------------------------------------
G|----------------------14--------------12------|--------------------------------------------
D|--13--12----------14------14------12------12--|--------------------1--0--1--0--------------
A|----------15--12--------------10--------------|--0--0--0--0--0--0--------------3--3--3--3--
E|----------------------------------------------|--------------------------------------------



E|-----------------------|------------------------------------------------------------------
B|-----------------------|------------------------------------------------------------------
G|-----------------------|------14------14------14------14------17------17------17------17--
D|--4--3--4--3--1--3--1--|------------------------------------------------------------------
A|-----------------------|--12------12------12------12------15------15------15------15------
E|-----------------------|------------------------------------------------------------------



E|---------------------------------------------------------------------------------------------
B|---------------------------------------------------------------------------------------------
G|------19------19------19------19------20------20------19------19--20--19--17--19--20--19-----
D|---------------------------------------------------------------------------------------------
A|--17------17------17------17------18------18------17------17---------------------------------
E|---------------------------------------------------------------------------------------------



E|----------------------------------------------|-----------------------------------
B|----------------------------------------------|-----------------------------------
G|--17--19--14--14--14--14--14--14--14--14--14--|-----------------------------------
D|----------------------------------------------|-----------------------------------
A|----------------------------------------------|--0--0--0--0--3--5--5--6--5--6--5--
E|----------------------------------------------|-----------------------------------



E|-----------------------------------|--
B|-----------------------------------|--
G|-----------------------------------|--
D|-----------------5--5--------8--7--|--
A|--0--0--0--0--3--------6--5--------|--
E|-----------------------------------|--
G|--
D|--
A|--
E|--
http://www.guitartabcreator.com
Guitar Tab Creator is intended to store guitar tab created through the tool. It currently does not support in-line text editing. Any text you place in here will be lost. If you need to comment on your tab, please use the "Tab Notes" section located below.