Contingency Sweeps

(/) Slide Up  (\) Slide Down  (h) Hammer On  (p) Pull Off  (b) Bend (r) Release (v) Vibrato

E|------------------6--10--6------------------|---------------6--10--6------------------|--
B|---------------8------------8---------------|------------8------------8---------------|--
G|------------7------------------7------------|---------7------------------7------------|--
D|---------8------------------------8---------|------8------------------------8---------|--
A|--6--10------------------------------10--6--|--10------------------------------10--6--|--
E|--------------------------------------------|-----------------------------------------|--



E|-----------------5--8--5-----------------|--------------5--8--5-----------------|--
B|--------------5-----------5--------------|-----------5-----------5--------------|--
G|-----------6-----------------6-----------|--------6-----------------6-----------|--
D|--------7-----------------------7--------|-----7-----------------------7--------|--
A|--5--8-----------------------------8--5--|--8-----------------------------8--5--|--
E|-----------------------------------------|--------------------------------------|--



E|----------------------10--13--10----------------------|------------------10--13--10-----------------
B|------------------10--------------10------------------|--------------10--------------10-------------
G|--------------11----------------------11--------------|----------11----------------------11---------
D|----------12------------------------------12----------|------12------------------------------12-----
A|--10--13--------------------------------------13--10--|--13-----------------------------------------
E|------------------------------------------------------|---------------------------------------------



E|----------|-----------------5--8--5-----------------|--------------5--8--5-----------------
B|----------|--------------5-----------5--------------|-----------5-----------5--------------
G|----------|-----------6-----------------6-----------|--------6-----------------6-----------
D|----------|--------7-----------------------7--------|-----7-----------------------7--------
A|--13--10--|--5--8-----------------------------8--5--|--8-----------------------------8--5--
E|----------|-----------------------------------------|--------------------------------------
http://www.guitartabcreator.com
Guitar Tab Creator is intended to store guitar tab created through the tool. It currently does not support in-line text editing. Any text you place in here will be lost. If you need to comment on your tab, please use the "Tab Notes" section located below.