Star Spangled Banner

(/) Slide Up  (\) Slide Down  (h) Hammer On  (p) Pull Off  (b) Bend (r) Release (v) Vibrato
D#|----------------------------------------------------------
A#|----------------------------------------------------------
F#|----------------------------------------------------------
C#|-----------8--12-10-8------------12-10-8-7--5-7-8-8-------
G#-8-5---5-8------------5-7-8--8-8--------------------8-5---
C#|-----8--------------------------------------------------8-



D#|-------------------------------------------------------------------------
A#|-------------------------------------------------------------------------
F#|-------------------------------------------------------------------------
C#|-12--12-12-12-13-15--15--13-12-10-12-13--13----13-12-10-8-7--5-7-8-------
G#|-------------------------------------------------------------------5-7-8-
C#|-------------------------------------------------------------------------



D#|-------------------------------------------------------------------------------------------------------------
A#|-------------------------------------------------------------------------------------------------------------
F#|-------------------------------------------------------------------------------------------------------------
C#|--------8--8--8--7--5--5--5--10--13--12--10--8--8--7------------8--10--12--13--15------8--10--12--13--10--8--
G#|--8--8----------------------------------------------------8--8-----------------------------------------------
C#|-------------------------------------------------------------------------------------------------------------
http://www.guitartabcreator.com
Guitar Tab Creator is intended to store guitar tab created through the tool. It currently does not support in-line text editing. Any text you place in here will be lost. If you need to comment on your tab, please use the "Tab Notes" section located below.