Spanish Classical

(/) Slide Up  (\) Slide Down  (h) Hammer On  (p) Pull Off  (b) Bend (r) Release (v) Vibrato


E|--3\7--7--7\12--12p10h12--10/8--8/7--7h8p7--7/5--5--5/3--3--2h3p2p0--
B|---------------------------------------------------------------------
G|---------------------------------------------------------------------
D|---------------------------------------------------------------------
A|---------------------------------------------------------------------
E|------------0--------------------------------------------------------



E|-----------------0-----------------0--
B|--------------0-----0--------------0--
G|-----------0-----------0-----------0--
D|--------2-----------------2--------2--
A|-----2-----------------------2-----2--
E|--0-----------------------------0--0--
http://www.guitartabcreator.com
Guitar Tab Creator is intended to store guitar tab created through the tool. It currently does not support in-line text editing. Any text you place in here will be lost. If you need to comment on your tab, please use the "Tab Notes" section located below.