Bathtub Gin

(/) Slide Up  (\) Slide Down  (h) Hammer On  (p) Pull Off  (b) Bend (r) Release (v) Vibrato
E|----------------------------------------------------------------------------
B|----------------------------------------------------------------------------
G|----------------------------------------------3--4--5---------7--7--5-------
D|------------------------------------5---------------------------------------
A|--3---------3-----1--2--3--------3---------3---------------3----------------
E|-----3---------3------------------------------------------------------------



E|----------------------------------------------
B|----------------------------------------------
G|--------7--7--5------5---------5-----7--7--3--
D|-----5------------------5---------5-----------
A|--3-------------------------------------------
E|----------------------------------------------



E|------------------------------------------
B|------------------------------------------
G|------------------------------------------
D|------------------------------------------
A|------------------1------------1--2--3----
E|--1--3------1--3---------1--3-------------



E|--------------------------------------
B|--------------------------------------
G|--------------------------------------
D|---------------7----------------------
A|--5--3------5-----5--3----5--3--2--1--
E|--------------------------------------



E|----------------------------------------
B|----------------------------------------
G|----------------------------------------
D|---------------3------------3-----------
A|--1---------1------------1--------0--1--
E|-----1------------1------------1--------



E|-----------------------------------------------------
B|-----------------------------------------------------
G|-------------------------------------------3---------
D|------------------------3--5------5--3--5-----5------
A|--3--5--7--7------3--5-------------------------------
E|-----------------------------------------------------



E|-----------------------------------------
B|-----------------------------------------
G|--5-----3------7--3--5------7--7--9------
D|-----5-----------------------------------
A|-----------------------------------------
E|-----------------------------------------



E|-----------------------------------------------------------------
B|-----------------------------------------------------------------
G|--10--9--7--9----------10--9---------9----------10--9--10--12----
D|---------------10-------------10--8-----10-----------------------
A|-----------------------------------------------------------------
E|-----------------------------------------------------------------



E|----------------------------------
B|----------------------------------
G|----------------------------------
D|------8--10-------------8--10-----
A|--10-------------8--10------------
E|----------------------------------
http://www.guitartabcreator.com
Guitar Tab Creator is intended to store guitar tab created through the tool. It currently does not support in-line text editing. Any text you place in here will be lost. If you need to comment on your tab, please use the "Tab Notes" section located below.