Written in the Sky Guitar 2

(/) Slide Up  (\) Slide Down  (h) Hammer On  (p) Pull Off  (b) Bend (r) Release (v) Vibrato


E|-----------------|-----------------|--------------------|--------------------
B|-----------------|-----------------|--------------------|--------------------
G|--6--------------|-----4-----------|--------------------|--------------------
D|--6--7-----------|--6--4-----------|--4-----------------|--7-----------------
A|--4--7-----------|--6--2--2--2--2--|--4-----------------|--7-----------------
E|-----5--5--5--5--|--4--------------|--2--2--2--2--2--2--|--5--5--5--5--5--5--



E|-----------------|--------------|-----------------|-----------|---------------|------------|--
B|-----------------|--------------|-----------------|-----------|---------------|------------|--
G|-------11--9--8--|--------------|-------11--9--8--|-----------|-----11--9--8--|------------|--
D|--9--------------|--7--9--11----|--9--------------|--7--7--7--|--9------------|--7--9--11--|--
A|-------9---7--6--|--------------|-------9---7--6--|-----------|-----9---7--6--|------------|--
E|--7--------------|--5--7--9-----|--7--------------|--5--5--5--|--7------------|--5--7--9---|--



E|----------------|---------------|--
B|----------------|---------------|--
G|----------------|---------------|--
D|--11------------|--9------------|--
A|--11------------|--9------------|--
E|--9-------------|--7------------|--



E|--------0--0----|--------0--0--|-----------------------------|-----|-----|-----|--
B|--------0--0----|--------0--0--|-----------------------------|-----|-----|-----|--
G|--------1--1----|--------1--1--|--2----2--2----2--2----2--2--|--6--|--4--|--2--|--
D|--------2--2----|--------2--2--|--2----2--2----2--2----2--2--|--6--|--4--|--2--|--
A|--------2--2----|--------2--2--|--0----0--0----0--0----0--0--|--4--|--2--|--0--|--
E|--------0--0----|--------0--0--|-----------------------------|-----|-----|-----|--



E|-----------------------|--------------------|--------------------|-----------------|--
B|-----------------------|--------------------|--------------------|-----------------|--
G|--9--8-----------------|--8--6--------------|--6-----------------|-----------------|--
D|--------11--9--11------|--------9-----------|-----9--------------|-----------------|--
A|-------------------11--|-----------9--7--6--|--------9--7--6--7--|--7--7--7--7--7--|--
E|-----------------------|--------------------|--------------------|-----------------|--
http://www.guitartabcreator.com
Guitar Tab Creator is intended to store guitar tab created through the tool. It currently does not support in-line text editing. Any text you place in here will be lost. If you need to comment on your tab, please use the "Tab Notes" section located below.