Road Rising Guitar 2

(/) Slide Up  (\) Slide Down  (h) Hammer On  (p) Pull Off  (b) Bend (r) Release (v) Vibrato


E|-----------------|--------------------------|-----------------|--------------------|--
B|-----------------|--------------------------|-----------------|--------------------|--
G|--6--6--6--6--8--|--13--13--13--13--11--11--|--6--6--6--6--8--|--3--4--6--3--6--3--|--
D|-----------------|--------------------------|-----------------|--------------------|--
A|--4--4--4--4--6--|--11--11--11--11--9---9---|--4--4--4--4--6--|--1--2--4--1--4--1--|--
E|-----------------|--------------------------|-----------------|--------------------|--



E|-----------------|------------|-----------------|-----------------
B|-----------------|------------|-----------------|-----------------
G|--6--11--11--13--|--13--9--9--|--6--6--6--6--8--|--3--4--6--3--6--
D|-----------------|------------|-----------------|-----------------
A|--4--9---9---11--|--11--7--7--|--4--4--4--4--6--|--1--2--4--1--4--
E|-----------------|------------|-----------------|-----------------



E|--------------|--------------|--------------|-------------------|--------------|----------
B|--------------|--------------|--------------|-------------------|--------------|----------
G|--------------|--------------|--------------|-------------------|--9--9--9--9--|--11--11--
D|--7--7--7--7--|--7--7--7--7--|--9--9--9--9--|--9--11--11--9--9--|--------------|----------
A|--------------|--------------|--------------|-------------------|--7--7--7--7--|--9---9---
E|--5--5--5--5--|--5--5--5--5--|--7--7--7--7--|--7--9---9---7--7--|--------------|----------



E|----------|--------------|------------------|------|--------------|--------------|--
B|----------|--------------|------------------|------|--------------|--------------|--
G|--11--11--|--13--13--14--|--14--14--14--14--|--13--|--9--9--9--9--|--7--7--7--7--|--
D|----------|--------------|------------------|------|--------------|--------------|--
A|--9---9---|--11--11--12--|--12--12--12--12--|--11--|--7--7--7--7--|--5--5--5--5--|--
E|----------|--------------|------------------|------|--------------|--------------|--



E|------------------|------|--------------|--------------|------------------|------|--
B|------------------|------|--------------|--------------|------------------|------|--
G|--14--14--14--14--|--13--|--9--9--9--9--|--7--7--7--7--|--14--14--14--14--|--13--|--
D|------------------|------|--------------|--------------|------------------|------|--
A|--12--12--12--12--|--11--|--7--7--7--7--|--5--5--5--5--|--12--12--12--12--|--11--|--
E|------------------|------|--------------|--------------|------------------|------|--



E|--------------|--------------|--------------|-----|-----|--
B|--------------|--------------|--------------|-----|-----|--
G|--9--9--9--9--|--7--7--7--7--|--5--5--5-----|-----|-----|--
D|--------------|--------------|-----------5--|--5--|--4--|--
A|--7--7--7--7--|--5--5--5--5--|--3--3--3-----|-----|-----|--
E|--------------|--------------|-----------3--|--3--|--2--|--
http://www.guitartabcreator.com
Guitar Tab Creator is intended to store guitar tab created through the tool. It currently does not support in-line text editing. Any text you place in here will be lost. If you need to comment on your tab, please use the "Tab Notes" section located below.