Untitled

E|-------------------2--------5--2-----2--------2-----2----------------------------------------
B|--3--------5-----------3-----------3-----3--------3-----3-----5-----5--------5-----5---------
G|-----2--------2-----------------------------2--------------2-----2-----2--------2-----2------
D|---------------------------------------------------------------------------------------------
A|--5-----5--------5--------5-----5-----5--------5-----5---------------------------------------
E|--------------------------------------------------------------5-----5-----5--5-----5-----5---



E|--------2--------------2--------------2--------------2--2--
B|--3--------3-----3--------3-----3-----------3--3-----3--3--
G|-----4--------4-----4--------4-----4-----4--------4--4--4--
D|--------4--------------4--------5--------------5-----5--5--
A|--2--------------2-----------------------------------------
E|-----------------------------------------------------------
Guitar Tab Creator is intended to store guitar tab created through the tool. It currently does not support in-line text editing. Any text you place in here will be lost. If you need to comment on your tab, please use the "Tab Notes" section located below.