Starter

(/) Slide Up  (\) Slide Down  (h) Hammer On  (p) Pull Off  (b) Bend (r) Release (v) Vibrato


E|-------------------
B|-------------------
G|-------------------
D|-------------------
A|-------------------
E|-0-0-0-4-2-0-2-4-2- )x3



E|--------------------------------------------------------------------
B|--------------------------------------------------------------------
G|--------------------------------------------------------------------
D|-2-2-2-2-2-2-2-5-5-5-5-5-5-5-11-11-11-11-11-11-10-10-10-10-10-10-10-
A|-2-2-2-2-2-2-2-5-5-5-5-5-5-5-11-11-11-11-11-11-10-10-10-10-10-10-10-
E|-0-0-0-0-0-0-0-7-7-7-7-7-7-7-9--9--9--9--9--9--8--8--8--8--8--8--8--



E|-------------------
B|-------------------
G|-------------------
D|-------------------
A|-------------------
E|-0-0-0-4-2-0-2-4-2- )x3
http://www.guitartabcreator.com
Guitar Tab Creator is intended to store guitar tab created through the tool. It currently does not support in-line text editing. Any text you place in here will be lost. If you need to comment on your tab, please use the "Tab Notes" section located below.