What You See is What You Get! (Guitar)

(/) Slide Up  (\) Slide Down  (h) Hammer On  (p) Pull Off  (b) Bend (r) Release (v) Vibrato


E|--Verse--------------------------
B|---------------------------------
G|---------6-6-------------8-8-----
D|-4-4-x-x-6-6-x-x-6-6-x-x-8-8-x-x-
A|-4-4-x-x-4-4-x-x-6-6-x-x-6-6-x-x-
E|-2-2-x-x-----x-x-4-4-x-x-----x-x-



E|--Pre Chorus-------------------------
B|-------------------------------------
G|-------------6-6-6-6-6-6-8-8-8-8-8-8-
D|-6-6-6-6-6-6-6-6-6-6-6-6-8-8-8-8-8-8-
A|-6-6-6-6-6-6-4-4-4-4-4-4-6-6-6-6-6-6-
E|-4-4-4-4-4-4-------------------------
. . . . . . . . . . . . . . . . . .


E|--Chorus-----------------------------------------------
B|-------------------------------------------------------
G|-13-13-13-13-13-13-------------------------------------
D|-13-13-13-13-13-13-13-13-13-13-13-13-11-11-11-11-11-11-
A|-11-11-11-11-11-11-13-13-13-13-13-13-11-11-11-11-11-11-
E|-------------------11-11-11-11-11-11-9--9--9--9--9--9--


E|--Post Chorus-----------------------------------
B|------------------------------------------------
G|----13-------13---------------------------------
D|-------------------13-------13---11-----11-9-11-
A|-11----11-11------------------------------------
E|----------------11----11-11----9----9-9---------

Austin's Solo
E|-------------------------------13-11-
B|-------------------------11-13-------
G|-------------------11-13-------------
D|-------------11-13-------------------
A|-------11-13-------------------------
E|-11-13-------------------------------



E|-14-13-11-14-13-11----11----14-13----14-16-17-16-------------------14-16-17-16-14-
B|-------------------13----11-------13-------------16-14----14-16-14----------------
G|-------------------------------------------------------16-------------------------
D|----------------------------------------------------------------------------------
A|----------------------------------------------------------------------------------
E|----------------------------------------------------------------------------------
http://www.guitartabcreator.com
Guitar Tab Creator is intended to store guitar tab created through the tool. It currently does not support in-line text editing. Any text you place in here will be lost. If you need to comment on your tab, please use the "Tab Notes" section located below.