What You See Is What You Get (Bass)

(/) Slide Up  (\) Slide Down  (h) Hammer On  (p) Pull Off  (b) Bend (r) Release (v) Vibrato
E|--Verse-----------------------------------------------------------------
B|-------------------------------------------------------------------
G|-------------------------------------------------------------------
D|-------------------------------------------------------------------
A|-----------4---4-----------6---6-----------4---4-----------6---6---
E|---2---2-----------4---4-----------2---2-----------4---4-----------



E|--Pre Chorus-----------------------------------------------------------------------
B|-------------------------------------------------------------------------
G|-------------------------------------------------------------------------
D|-------------------------------------------------------------------------
A|-------------4-4-4-4-4-4-6-6-6-6-6-6-------------4-4-4-4-4-4-6-6-6-6-6-6-
E|-4-4-4-4-4-4-------------------------4-4-4-4-4-4-------------------------



E|--Chorus-----------------------------------------------------------------------------------------
B|-------------------------------------------------------------------------------------------------
G|-------------------------------------------------------------------------------------------------
D|-------------------------------------------------------------------------------------------------
A|-11-11-11-11-11-11-------------------------------11-11-11-11-11-11-------------------------------
E|-------------------11-11-11-11-11-11-9-9-9-9-9-9-------------------11-11-11-11-11-11-9-9-9-9-9-9-



E|--Guitar Solo------------------------------------------------------------------------------------
B|-------------------------------------------------------------------------------------------------
G|-------------------------------------------------------------------------------------------------
D|-------------------------------------------------------------------------------------------------
A|-11-11-11-11-11-11-------------------------------11-11-11-11-11-11-------------------------------
E|-------------------11-11-11-11-11-11-9-9-9-9-9-9-------------------11-11-11-11-11-11-9-9-9-9-9-9-



E|--Chorus (If You Can Play It)----------------------------------------------------------------
B|---------------------------------------------------------------------------------------------
G|----13-------13-------------------------------13-------13------------------------------------
D|-------------------13-------13---11-----11-------------------13-------13---11-----11-9-11----
A|-11----11-11-------------------------------11----11-11------------------------------------11-
E|----------------11----11-11----9----9-9-------------------11----11-11----9----9-9------------
http://www.guitartabcreator.com
Guitar Tab Creator is intended to store guitar tab created through the tool. It currently does not support in-line text editing. Any text you place in here will be lost. If you need to comment on your tab, please use the "Tab Notes" section located below.