Stay The Night (Bass)

(/) Slide Up  (\) Slide Down  (h) Hammer On  (p) Pull Off  (b) Bend (r) Release (v) Vibrato


E|--Verse----------------------------------------------------------------
B|-----------------------------------------------------------------------
G|-----------------------------------------------------------------------
D|-----------------------------------------------------------------------
A|--4--4--------------------4--4-----------------4--4--------------------
E|--------4--4--2--2--2--2--------4--4--2--2--2--------4--4--2--2--2--2--



E|--Pt2 Verse--
B|-------------
G|-------------
D|-------------
A|-------------
E|-6-6-6-6-6-6-



E|--Chorus---------------------------------------
B|-----------------------------------------------
G|-----------------------------------------------
D|-----------------------------------------------
A|---------4-4-4-----------------4-4-4-----------
E|-2-2-2-2-------4-4-4-4-2-2-2-2-------4-4-4-4-4-




http://www.guitartabcreator.com
Guitar Tab Creator is intended to store guitar tab created through the tool. It currently does not support in-line text editing. Any text you place in here will be lost. If you need to comment on your tab, please use the "Tab Notes" section located below.