Contradiction (Bass)

(/) Slide Up  (\) Slide Down  (h) Hammer On  (p) Pull Off  (b) Bend (r) Release (v) Vibrato


E|--Verse-------------------------------------------------------------------
B|--------------------------------------------------------------------------
G|--------------------------------------------------------------------------
D|--------------------------------------------------------------------------
A|--7--7--------------------7--7--------------------7--7--------------------
E|--------8--8--7--7--5--5--------8--8--7--7--5--5--------8--8--7--7--5--5--



E|--Pre Chorus----------------------
B|----------------------------------
G|----------------------------------
D|----------------------------------
A|--7--7\0--------------------------
E|----------8--8\0--7--7\0--5--5\0--



E|--Chorus---------------------------------------------
B|-----------------------------------------------------
G|-----------------------------------------------------
D|-----------------------------------------------------
A|--7-----------7-----------7-----------7-----------7--
E|-----9--7--5-----9--7--5-----9--7--5-----9--7--5-----
http://www.guitartabcreator.com
Guitar Tab Creator is intended to store guitar tab created through the tool. It currently does not support in-line text editing. Any text you place in here will be lost. If you need to comment on your tab, please use the "Tab Notes" section located below.