Carnival Girl (Bass)

(/) Slide Up  (\) Slide Down  (h) Hammer On  (p) Pull Off  (b) Bend (r) Release (v) Vibrato

E|--Verse-------------------------------------------------
B|--------------------------------------------------------
G|--------------------------------------------------------
D|--------------------------------------------------------
A|--4--4--4--4--4--4--0--0--0--0--0--0--------------------
E|--------------------------------------2--2--2--2--2--2--



E|--Pre Chorus--------------------------------------------
B|--------------------------------------------------------
G|--------------------------------------------------------
D|--------------------------------------------------------
A|--4--4--4--4--4--4--0--0--0--0--0--0--------------------
E|--------------------------------------2--2--2--2--2--2--



E|--Chorus------------------------------------------------------------------
B|--------------------------------------------------------------------------
G|--------------------------------------------------------------------------
D|--------------------------------------------------------------------------
A|--4--4--4--4--4--4--7--7--7--7--7--7--4--4--4--4--4--4--------------------
E|--------------------------------------------------------4--4--4--4--4--4--



E|--Bridge---------------------
B|-----------------------------
G|-----------------------------
D|-----------------------------
A|-----------------------------
E|--4--2--4--4--4--4--2--2--4--



E|--Pt2 Bridge--------------------------
B|--------------------------------------
G|--------------------------------------
D|--------------------------------------
A|--4--4--4--4--4--4--7--7--7--7--7--7--
E|--------------------------------------



E|--Outro Chorus---------------------------------------------------------------
B|-----------------------------------------------------------------------------
G|-----------------------------------------------------------------------------
D|-----------------------------------------------------------------------------
A|--------------------4--4--4--4--4--4--7--7--7--7--7--7--4--4--4--4--4--4-----
E|--4--4--4--4--4--4--------------------------------------------------------4--



E|--Outro Chorus---------------------------------------------------------------
B|-----------------------------------------------------------------------------
G|-----------------------------------------------------------------------------
D|-----------------------------------------------------------------------------
A|--------------------4--4--4--4--4--4--7--7--7--7--7--7--4--4--4--4--4--4-----
E|--4--4--4--4--4--4--------------------------------------------------------4--



E|---Outro Chorus-----------------------------------------------------------------------------
B|--------------------------------------------------------------------------------------------
G|--------------------------------------------------------------------------------------------
D|--------------------------------------------------------------------------------------------
A|--------------------4--4--4--4--4--4--7--7--7--7--7--7--4--4--4--4--4--4--------------------
E|--4--4--4--4--4--4--------------------------------------------------------4--4--4--4--4--4--



E|--Outro Chorus------------------------------------------------------------------
B|--------------------------------------------------------------------------------
G|--------------------------------------------------------------------------------
D|--------------------------------------------------------------------------------
A|--------------------4--4--4--4--4--4--7--7--7--7--7--7--4--4--4--4--4--4-----4--
E|--4--4--4--4--4--4--------------------------------------------------------4-----
http://www.guitartabcreator.com
Guitar Tab Creator is intended to store guitar tab created through the tool. It currently does not support in-line text editing. Any text you place in here will be lost. If you need to comment on your tab, please use the "Tab Notes" section located below.